ISO-10303-21;
HEADER;
FILE_DESCRIPTION (( 'STEP AP203' ),
    '1' );
FILE_NAME ('Q-QZWP-R4-20-852-M.STEP',
    '2020-12-23T01:26:27',
    ( '' ),
    ( '' ),
    'SwSTEP 2.0',
    'SolidWorks 2020',
    '' );
FILE_SCHEMA (( 'CONFIG_CONTROL_DESIGN' ));
ENDSEC;

DATA;
#1 = CARTESIAN_POINT ( 'NONE',  ( 3.000000000000000000, 0.000000000000000000, 12.69999999999999929 ) ) ;
#2 = APPROVAL_PERSON_ORGANIZATION ( #83, #106, #311 ) ;
#3 = DIRECTION ( 'NONE',  ( -1.000000000000000000, -0.000000000000000000, -0.000000000000000000 ) ) ;
#4 = EDGE_CURVE ( 'NONE', #81, #307, #48, .T. ) ;
#5 = FACE_OUTER_BOUND ( 'NONE', #203, .T. ) ;
#6 = FACE_OUTER_BOUND ( 'NONE', #49, .T. ) ;
#7 = CARTESIAN_POINT ( 'NONE',  ( 2.999999999999999112, 12.69999999999999929, 0.000000000000000000 ) ) ;
#8 = ORIENTED_EDGE ( 'NONE', *, *, #150, .F. ) ;
#9 = CC_DESIGN_PERSON_AND_ORGANIZATION_ASSIGNMENT ( #133, #287, ( #296 ) ) ;
#10 = EDGE_CURVE ( 'NONE', #308, #78, #111, .T. ) ;
#11 = FACE_OUTER_BOUND ( 'NONE', #105, .T. ) ;
#12 = ORIENTED_EDGE ( 'NONE', *, *, #25, .T. ) ;
#13 = DATE_AND_TIME ( #143, #254 ) ;
#14 = ORIENTED_EDGE ( 'NONE', *, *, #134, .T. ) ;
#15 = FACE_OUTER_BOUND ( 'NONE', #180, .T. ) ;
#16 = CIRCLE ( 'NONE', #64, 12.69999999999999929 ) ;
#17 = ORIENTED_EDGE ( 'NONE', *, *, #171, .T. ) ;
#18 = AXIS2_PLACEMENT_3D ( 'NONE', #61, #293, #193 ) ;
#19 = PERSON_AND_ORGANIZATION ( #40, #123 ) ;
#20 = EDGE_CURVE ( 'NONE', #80, #162, #85, .T. ) ;
#21 = ORIENTED_EDGE ( 'NONE', *, *, #36, .F. ) ;
#22 = ORIENTED_EDGE ( 'NONE', *, *, #324, .F. ) ;
#23 = SECURITY_CLASSIFICATION_LEVEL ( 'unclassified' ) ;
#24 = ORIENTED_EDGE ( 'NONE', *, *, #10, .T. ) ;
#25 = EDGE_CURVE ( 'NONE', #138, #331, #310, .T. ) ;
#26 = AXIS2_PLACEMENT_3D ( 'NONE', #174, #268, #37 ) ;
#27 = DIRECTION ( 'NONE',  ( 1.000000000000000000, 0.000000000000000000, 0.000000000000000000 ) ) ;
#28 = DIRECTION ( 'NONE',  ( 0.000000000000000000, 0.000000000000000000, 1.000000000000000000 ) ) ;
#29 = CARTESIAN_POINT ( 'NONE',  ( -1.614212418857619014, 1.224646799147353256E-15, -10.00000000000000000 ) ) ;
#30 = DIRECTION ( 'NONE',  ( -1.000000000000000000, -0.000000000000000000, -0.000000000000000000 ) ) ;
#31 = DIRECTION ( 'NONE',  ( 1.000000000000000000, 0.000000000000000000, 0.000000000000000000 ) ) ;
#32 = DIRECTION ( 'NONE',  ( 0.000000000000000000, 0.000000000000000000, 1.000000000000000000 ) ) ;
#33 = LOCAL_TIME ( 9, 26, 27.00000000000000000, #89 ) ;
#34 = EDGE_CURVE ( 'NONE', #78, #308, #16, .T. ) ;
#35 = DIRECTION ( 'NONE',  ( -1.000000000000000000, -0.000000000000000000, -0.000000000000000000 ) ) ;
#36 = EDGE_CURVE ( 'NONE', #331, #138, #253, .T. ) ;
#37 = DIRECTION ( 'NONE',  ( 0.000000000000000000, 0.000000000000000000, 1.000000000000000000 ) ) ;
#38 = ADVANCED_FACE ( 'NONE', ( #291 ), #235, .F. ) ;
#39 = AXIS2_PLACEMENT_3D ( 'NONE', #7, #177, #120 ) ;
#40 = PERSON ( 'UNSPECIFIED', 'UNSPECIFIED', 'UNSPECIFIED', ('UNSPECIFIED'), ('UNSPECIFIED'), ('UNSPECIFIED') ) ;
#41 = CARTESIAN_POINT ( 'NONE',  ( -1.614212418857619014, 0.000000000000000000, 10.00000000000000000 ) ) ;
#42 = DIRECTION ( 'NONE',  ( 1.000000000000000000, 0.000000000000000000, 0.000000000000000000 ) ) ;
#43 = ADVANCED_BREP_SHAPE_REPRESENTATION ( 'Q-QZWP-R4-20-852-M', ( #303, #86 ), #65 ) ;
#44 = VECTOR ( 'NONE', #175, 1000.000000000000000 ) ;
#45 = DIRECTION ( 'NONE',  ( -1.000000000000000000, -0.000000000000000000, -0.000000000000000000 ) ) ;
#46 = ORIENTED_EDGE ( 'NONE', *, *, #20, .F. ) ;
#47 = ORIENTED_EDGE ( 'NONE', *, *, #51, .T. ) ;
#48 = CIRCLE ( 'NONE', #259, 12.69999999999999929 ) ;
#49 = EDGE_LOOP ( 'NONE', ( #300, #24 ) ) ;
#50 = APPROVAL_ROLE ( '' ) ;
#51 = EDGE_CURVE ( 'NONE', #304, #98, #281, .T. ) ;
#52 = EDGE_LOOP ( 'NONE', ( #14, #47 ) ) ;
#53 = CALENDAR_DATE ( 2020, 23, 12 ) ;
#54 = ADVANCED_FACE ( 'NONE', ( #219 ), #217, .T. ) ;
#55 = ORIENTED_EDGE ( 'NONE', *, *, #4, .T. ) ;
#56 = DATE_AND_TIME ( #53, #79 ) ;
#57 = APPROVAL_STATUS ( 'not_yet_approved' ) ;
#58 = DIRECTION ( 'NONE',  ( 0.000000000000000000, 0.000000000000000000, -1.000000000000000000 ) ) ;
#59 = DIRECTION ( 'NONE',  ( -1.000000000000000000, -0.000000000000000000, -0.000000000000000000 ) ) ;
#60 = CYLINDRICAL_SURFACE ( 'NONE', #289, 10.00000000000000000 ) ;
#61 = CARTESIAN_POINT ( 'NONE',  ( 2.500000000000000444, 10.00000000000000000, 0.000000000000000000 ) ) ;
#62 = LOCAL_TIME ( 9, 26, 27.00000000000000000, #184 ) ;
#63 = DIRECTION ( 'NONE',  ( 0.000000000000000000, 0.000000000000000000, 1.000000000000000000 ) ) ;
#64 = AXIS2_PLACEMENT_3D ( 'NONE', #93, #59, #32 ) ;
#65 =( GEOMETRIC_REPRESENTATION_CONTEXT ( 3 ) GLOBAL_UNCERTAINTY_ASSIGNED_CONTEXT ( ( #202 ) ) GLOBAL_UNIT_ASSIGNED_CONTEXT ( ( #288, #166, #280 ) ) REPRESENTATION_CONTEXT ( 'NONE', 'WORKASPACE' ) );
#66 = FACE_BOUND ( 'NONE', #52, .T. ) ;
#67 = DESIGN_CONTEXT ( 'detailed design', #140, 'design' ) ;
#68 = CARTESIAN_POINT ( 'NONE',  ( -1.614212418857619014, 0.000000000000000000, 12.69999999999999929 ) ) ;
#69 = CC_DESIGN_PERSON_AND_ORGANIZATION_ASSIGNMENT ( #249, #73, ( #320 ) ) ;
#70 = CARTESIAN_POINT ( 'NONE',  ( -3.000000000000000444, 0.000000000000000000, 10.00000000000000000 ) ) ;
#71 = CLOSED_SHELL ( 'NONE', ( #238, #114, #319, #88, #121, #74, #179, #54, #221, #38 ) ) ;
#72 = AXIS2_PLACEMENT_3D ( 'NONE', #104, #325, #169 ) ;
#73 = PERSON_AND_ORGANIZATION_ROLE ( 'design_owner' ) ;
#74 = ADVANCED_FACE ( 'NONE', ( #5 ), #316, .F. ) ;
#75 = ORIENTED_EDGE ( 'NONE', *, *, #117, .F. ) ;
#76 = CARTESIAN_POINT ( 'NONE',  ( -3.000000000000000000, 0.000000000000000000, 0.000000000000000000 ) ) ;
#77 = CIRCLE ( 'NONE', #243, 10.00000000000000000 ) ;
#78 = VERTEX_POINT ( 'NONE', #141 ) ;
#79 = LOCAL_TIME ( 9, 26, 27.00000000000000000, #285 ) ;
#80 = VERTEX_POINT ( 'NONE', #144 ) ;
#81 = VERTEX_POINT ( 'NONE', #1 ) ;
#82 = APPROVAL_STATUS ( 'not_yet_approved' ) ;
#83 = PERSON_AND_ORGANIZATION ( #40, #123 ) ;
#84 = DIRECTION ( 'NONE',  ( -1.000000000000000000, -0.000000000000000000, -0.000000000000000000 ) ) ;
#85 = CIRCLE ( 'NONE', #271, 10.00000000000000000 ) ;
#86 = AXIS2_PLACEMENT_3D ( 'NONE', #234, #328, #31 ) ;
#87 = PERSON_AND_ORGANIZATION_ROLE ( 'creator' ) ;
#88 = ADVANCED_FACE ( 'NONE', ( #110 ), #215, .F. ) ;
#89 = COORDINATED_UNIVERSAL_TIME_OFFSET ( 8, 0, .AHEAD. ) ;
#90 = CARTESIAN_POINT ( 'NONE',  ( -1.614212418857619014, 0.000000000000000000, 0.000000000000000000 ) ) ;
#91 = CARTESIAN_POINT ( 'NONE',  ( 3.000000000000000000, 0.000000000000000000, 0.000000000000000000 ) ) ;
#92 = AXIS2_PLACEMENT_3D ( 'NONE', #198, #84, #116 ) ;
#93 = CARTESIAN_POINT ( 'NONE',  ( -3.000000000000000000, 0.000000000000000000, 0.000000000000000000 ) ) ;
#94 = DIRECTION ( 'NONE',  ( -1.000000000000000000, -0.000000000000000000, -0.000000000000000000 ) ) ;
#95 = LINE ( 'NONE', #41, #44 ) ;
#96 = AXIS2_PLACEMENT_3D ( 'NONE', #261, #266, #58 ) ;
#97 = CARTESIAN_POINT ( 'NONE',  ( -1.614212418857619014, 0.000000000000000000, 10.00000000000000000 ) ) ;
#98 = VERTEX_POINT ( 'NONE', #109 ) ;
#99 = DIRECTION ( 'NONE',  ( -1.000000000000000000, -0.000000000000000000, -0.000000000000000000 ) ) ;
#100 = EDGE_CURVE ( 'NONE', #307, #81, #272, .T. ) ;
#101 = CARTESIAN_POINT ( 'NONE',  ( -3.000000000000000000, 1.555301434917138433E-15, -12.69999999999999929 ) ) ;
#102 = ORIENTED_EDGE ( 'NONE', *, *, #117, .T. ) ;
#103 = DATE_AND_TIME ( #136, #211 ) ;
#104 = CARTESIAN_POINT ( 'NONE',  ( -1.614212418857619014, 0.000000000000000000, 0.000000000000000000 ) ) ;
#105 = EDGE_LOOP ( 'NONE', ( #279, #187 ) ) ;
#106 = APPROVAL ( #57, 'UNSPECIFIED' ) ;
#107 = ORIENTED_EDGE ( 'NONE', *, *, #51, .F. ) ;
#108 = CARTESIAN_POINT ( 'NONE',  ( 2.500000000000000888, 0.000000000000000000, 10.00000000000000000 ) ) ;
#109 = CARTESIAN_POINT ( 'NONE',  ( 2.999999999999999112, 0.000000000000000000, 10.00000000000000000 ) ) ;
#110 = FACE_OUTER_BOUND ( 'NONE', #252, .T. ) ;
#111 = CIRCLE ( 'NONE', #119, 12.69999999999999929 ) ;
#112 = VECTOR ( 'NONE', #204, 1000.000000000000000 ) ;
#113 = APPROVAL_STATUS ( 'not_yet_approved' ) ;
#114 = ADVANCED_FACE ( 'NONE', ( #195 ), #60, .F. ) ;
#115 = DIRECTION ( 'NONE',  ( -1.000000000000000000, -0.000000000000000000, -0.000000000000000000 ) ) ;
#116 = DIRECTION ( 'NONE',  ( 0.000000000000000000, 0.000000000000000000, 1.000000000000000000 ) ) ;
#117 = EDGE_CURVE ( 'NONE', #231, #161, #77, .T. ) ;
#118 = CARTESIAN_POINT ( 'NONE',  ( -1.614212418857619014, 1.224646799147353256E-15, -10.00000000000000000 ) ) ;
#119 = AXIS2_PLACEMENT_3D ( 'NONE', #76, #132, #230 ) ;
#120 = DIRECTION ( 'NONE',  ( -0.000000000000000000, 0.000000000000000000, 1.000000000000000000 ) ) ;
#121 = ADVANCED_FACE ( 'NONE', ( #149 ), #240, .F. ) ;
#122 = ORIENTED_EDGE ( 'NONE', *, *, #100, .T. ) ;
#123 = ORGANIZATION ( 'UNSPECIFIED', 'UNSPECIFIED', '' ) ;
#124 = CARTESIAN_POINT ( 'NONE',  ( -1.614212418857619014, 0.000000000000000000, 0.000000000000000000 ) ) ;
#125 = EDGE_CURVE ( 'NONE', #80, #231, #151, .T. ) ;
#126 = EDGE_LOOP ( 'NONE', ( #233, #122, #229, #135 ) ) ;
#127 = CC_DESIGN_DATE_AND_TIME_ASSIGNMENT ( #292, #196, ( #173 ) ) ;
#128 = PERSON_AND_ORGANIZATION ( #40, #123 ) ;
#129 = ORIENTED_EDGE ( 'NONE', *, *, #164, .F. ) ;
#130 = VECTOR ( 'NONE', #222, 1000.000000000000000 ) ;
#131 = ORIENTED_EDGE ( 'NONE', *, *, #34, .F. ) ;
#132 = DIRECTION ( 'NONE',  ( -1.000000000000000000, -0.000000000000000000, -0.000000000000000000 ) ) ;
#133 = PERSON_AND_ORGANIZATION ( #40, #123 ) ;
#134 = EDGE_CURVE ( 'NONE', #98, #304, #153, .T. ) ;
#135 = ORIENTED_EDGE ( 'NONE', *, *, #10, .F. ) ;
#136 = CALENDAR_DATE ( 2020, 23, 12 ) ;
#137 = APPROVAL_PERSON_ORGANIZATION ( #142, #212, #163 ) ;
#138 = VERTEX_POINT ( 'NONE', #225 ) ;
#139 = CYLINDRICAL_SURFACE ( 'NONE', #72, 10.00000000000000000 ) ;
#140 = APPLICATION_CONTEXT ( 'configuration controlled 3d designs of mechanical parts and assemblies' ) ;
#141 = CARTESIAN_POINT ( 'NONE',  ( -3.000000000000000000, 0.000000000000000000, 12.69999999999999929 ) ) ;
#142 = PERSON_AND_ORGANIZATION ( #40, #123 ) ;
#143 = CALENDAR_DATE ( 2020, 23, 12 ) ;
#144 = CARTESIAN_POINT ( 'NONE',  ( -2.500000000000000444, 1.224646799147353256E-15, -10.00000000000000000 ) ) ;
#145 = DIRECTION ( 'NONE',  ( 0.000000000000000000, 0.000000000000000000, 1.000000000000000000 ) ) ;
#146 = AXIS2_PLACEMENT_3D ( 'NONE', #315, #30, #168 ) ;
#147 = AXIS2_PLACEMENT_3D ( 'NONE', #251, #27, #299 ) ;
#148 = APPROVAL ( #113, 'UNSPECIFIED' ) ;
#149 = FACE_OUTER_BOUND ( 'NONE', #156, .T. ) ;
#150 = EDGE_CURVE ( 'NONE', #98, #331, #95, .T. ) ;
#151 = LINE ( 'NONE', #118, #130 ) ;
#152 = DIRECTION ( 'NONE',  ( -1.000000000000000000, -0.000000000000000000, -0.000000000000000000 ) ) ;
#153 = CIRCLE ( 'NONE', #305, 10.00000000000000000 ) ;
#154 = DIRECTION ( 'NONE',  ( 0.000000000000000000, 0.000000000000000000, -1.000000000000000000 ) ) ;
#155 = LINE ( 'NONE', #97, #312 ) ;
#156 = EDGE_LOOP ( 'NONE', ( #22, #256, #284, #248 ) ) ;
#157 = APPLICATION_PROTOCOL_DEFINITION ( 'international standard', 'config_control_design', 1994, #140 ) ;
#158 = EDGE_LOOP ( 'NONE', ( #165, #75 ) ) ;
#159 = ORIENTED_EDGE ( 'NONE', *, *, #25, .F. ) ;
#160 = CC_DESIGN_APPROVAL ( #148, ( #296 ) ) ;
#161 = VERTEX_POINT ( 'NONE', #70 ) ;
#162 = VERTEX_POINT ( 'NONE', #245 ) ;
#163 = APPROVAL_ROLE ( '' ) ;
#164 = EDGE_CURVE ( 'NONE', #81, #78, #295, .T. ) ;
#165 = ORIENTED_EDGE ( 'NONE', *, *, #171, .F. ) ;
#166 =( NAMED_UNIT ( * ) PLANE_ANGLE_UNIT ( ) SI_UNIT ( $, .RADIAN. ) );
#167 = DIRECTION ( 'NONE',  ( 1.000000000000000000, 0.000000000000000000, 0.000000000000000000 ) ) ;
#168 = DIRECTION ( 'NONE',  ( 0.000000000000000000, 0.000000000000000000, 1.000000000000000000 ) ) ;
#169 = DIRECTION ( 'NONE',  ( 0.000000000000000000, 0.000000000000000000, 1.000000000000000000 ) ) ;
#170 = DIRECTION ( 'NONE',  ( -1.000000000000000000, -0.000000000000000000, -0.000000000000000000 ) ) ;
#171 = EDGE_CURVE ( 'NONE', #161, #231, #327, .T. ) ;
#172 = AXIS2_PLACEMENT_3D ( 'NONE', #124, #323, #275 ) ;
#173 = PRODUCT_DEFINITION ( 'UNKNOWN', '', #296, #67 ) ;
#174 = CARTESIAN_POINT ( 'NONE',  ( -1.614212418857619014, 0.000000000000000000, 0.000000000000000000 ) ) ;
#175 = DIRECTION ( 'NONE',  ( -1.000000000000000000, -0.000000000000000000, -0.000000000000000000 ) ) ;
#176 = AXIS2_PLACEMENT_3D ( 'NONE', #239, #3, #263 ) ;
#177 = DIRECTION ( 'NONE',  ( -1.000000000000000000, 0.000000000000000000, -0.000000000000000000 ) ) ;
#178 = CC_DESIGN_PERSON_AND_ORGANIZATION_ASSIGNMENT ( #19, #207, ( #296 ) ) ;
#179 = ADVANCED_FACE ( 'NONE', ( #270, #6 ), #226, .F. ) ;
#180 = EDGE_LOOP ( 'NONE', ( #107, #213, #12, #8 ) ) ;
#181 = DIRECTION ( 'NONE',  ( -1.000000000000000000, -0.000000000000000000, -0.000000000000000000 ) ) ;
#182 = CC_DESIGN_PERSON_AND_ORGANIZATION_ASSIGNMENT ( #128, #87, ( #173 ) ) ;
#183 = ORIENTED_EDGE ( 'NONE', *, *, #297, .F. ) ;
#184 = COORDINATED_UNIVERSAL_TIME_OFFSET ( 8, 0, .AHEAD. ) ;
#185 = APPLICATION_CONTEXT ( 'configuration controlled 3d designs of mechanical parts and assemblies' ) ;
#186 = MECHANICAL_CONTEXT ( 'NONE', #185, 'mechanical' ) ;
#187 = ORIENTED_EDGE ( 'NONE', *, *, #100, .F. ) ;
#188 = COORDINATED_UNIVERSAL_TIME_OFFSET ( 8, 0, .AHEAD. ) ;
#189 = CARTESIAN_POINT ( 'NONE',  ( -2.500000000000000444, 0.000000000000000000, 0.000000000000000000 ) ) ;
#190 = SHAPE_DEFINITION_REPRESENTATION ( #273, #43 ) ;
#191 = LINE ( 'NONE', #29, #322 ) ;
#192 = AXIS2_PLACEMENT_3D ( 'NONE', #321, #42, #154 ) ;
#193 = DIRECTION ( 'NONE',  ( -0.000000000000000000, 0.000000000000000000, 1.000000000000000000 ) ) ;
#194 = CARTESIAN_POINT ( 'NONE',  ( 2.999999999999999112, 1.224646799147353256E-15, -10.00000000000000000 ) ) ;
#195 = FACE_OUTER_BOUND ( 'NONE', #250, .T. ) ;
#196 = DATE_TIME_ROLE ( 'creation_date' ) ;
#197 = CARTESIAN_POINT ( 'NONE',  ( -3.000000000000000444, 0.000000000000000000, 0.000000000000000000 ) ) ;
#198 = CARTESIAN_POINT ( 'NONE',  ( -1.614212418857619014, 0.000000000000000000, 0.000000000000000000 ) ) ;
#199 = SECURITY_CLASSIFICATION ( '', '', #23 ) ;
#200 = CARTESIAN_POINT ( 'NONE',  ( 2.500000000000000888, 0.000000000000000000, 0.000000000000000000 ) ) ;
#201 = CARTESIAN_POINT ( 'NONE',  ( -3.000000000000000444, 0.000000000000000000, 0.000000000000000000 ) ) ;
#202 = UNCERTAINTY_MEASURE_WITH_UNIT (LENGTH_MEASURE( 1.000000000000000082E-05 ), #288, 'distance_accuracy_value', 'NONE');
#203 = EDGE_LOOP ( 'NONE', ( #258, #228, #206, #17 ) ) ;
#204 = DIRECTION ( 'NONE',  ( -1.000000000000000000, -0.000000000000000000, -0.000000000000000000 ) ) ;
#205 = CC_DESIGN_APPROVAL ( #212, ( #199 ) ) ;
#206 = ORIENTED_EDGE ( 'NONE', *, *, #269, .T. ) ;
#207 = PERSON_AND_ORGANIZATION_ROLE ( 'creator' ) ;
#208 = APPLICATION_PROTOCOL_DEFINITION ( 'international standard', 'config_control_design', 1994, #185 ) ;
#209 = DIRECTION ( 'NONE',  ( 0.000000000000000000, 0.000000000000000000, 1.000000000000000000 ) ) ;
#210 = ORIENTED_EDGE ( 'NONE', *, *, #297, .T. ) ;
#211 = LOCAL_TIME ( 9, 26, 27.00000000000000000, #188 ) ;
#212 = APPROVAL ( #82, 'UNSPECIFIED' ) ;
#213 = ORIENTED_EDGE ( 'NONE', *, *, #324, .T. ) ;
#214 = CARTESIAN_POINT ( 'NONE',  ( -1.614212418857619014, 1.555301434917138433E-15, -12.69999999999999929 ) ) ;
#215 = PLANE ( 'NONE',  #18 ) ;
#216 = CC_DESIGN_PERSON_AND_ORGANIZATION_ASSIGNMENT ( #262, #302, ( #199 ) ) ;
#217 = CYLINDRICAL_SURFACE ( 'NONE', #92, 12.69999999999999929 ) ;
#218 = CALENDAR_DATE ( 2020, 23, 12 ) ;
#219 = FACE_OUTER_BOUND ( 'NONE', #126, .T. ) ;
#220 = DIRECTION ( 'NONE',  ( -1.000000000000000000, -0.000000000000000000, -0.000000000000000000 ) ) ;
#221 = ADVANCED_FACE ( 'NONE', ( #11, #66 ), #244, .F. ) ;
#222 = DIRECTION ( 'NONE',  ( -1.000000000000000000, -0.000000000000000000, -0.000000000000000000 ) ) ;
#223 = AXIS2_PLACEMENT_3D ( 'NONE', #201, #94, #247 ) ;
#224 = CARTESIAN_POINT ( 'NONE',  ( -3.000000000000000444, 1.224646799147353256E-15, -10.00000000000000000 ) ) ;
#225 = CARTESIAN_POINT ( 'NONE',  ( 2.500000000000000888, 1.224646799147353256E-15, -10.00000000000000000 ) ) ;
#226 = PLANE ( 'NONE',  #192 ) ;
#227 = LINE ( 'NONE', #214, #112 ) ;
#228 = ORIENTED_EDGE ( 'NONE', *, *, #20, .T. ) ;
#229 = ORIENTED_EDGE ( 'NONE', *, *, #164, .T. ) ;
#230 = DIRECTION ( 'NONE',  ( 0.000000000000000000, 0.000000000000000000, 1.000000000000000000 ) ) ;
#231 = VERTEX_POINT ( 'NONE', #224 ) ;
#232 = APPROVAL_DATE_TIME ( #330, #212 ) ;
#233 = ORIENTED_EDGE ( 'NONE', *, *, #333, .F. ) ;
#234 = CARTESIAN_POINT ( 'NONE',  ( 0.000000000000000000, 0.000000000000000000, 0.000000000000000000 ) ) ;
#235 = PLANE ( 'NONE',  #96 ) ;
#236 = CARTESIAN_POINT ( 'NONE',  ( 3.000000000000000000, 1.555301434917138433E-15, -12.69999999999999929 ) ) ;
#237 = AXIS2_PLACEMENT_3D ( 'NONE', #200, #115, #145 ) ;
#238 = ADVANCED_FACE ( 'NONE', ( #318 ), #274, .T. ) ;
#239 = CARTESIAN_POINT ( 'NONE',  ( 2.500000000000000888, 0.000000000000000000, 0.000000000000000000 ) ) ;
#240 = CYLINDRICAL_SURFACE ( 'NONE', #26, 10.00000000000000000 ) ;
#241 = DIRECTION ( 'NONE',  ( 0.000000000000000000, 0.000000000000000000, 1.000000000000000000 ) ) ;
#242 = DIRECTION ( 'NONE',  ( 0.000000000000000000, 0.000000000000000000, 1.000000000000000000 ) ) ;
#243 = AXIS2_PLACEMENT_3D ( 'NONE', #197, #294, #63 ) ;
#244 = PLANE ( 'NONE',  #39 ) ;
#245 = CARTESIAN_POINT ( 'NONE',  ( -2.500000000000000444, 0.000000000000000000, 10.00000000000000000 ) ) ;
#246 = CC_DESIGN_SECURITY_CLASSIFICATION ( #199, ( #296 ) ) ;
#247 = DIRECTION ( 'NONE',  ( 0.000000000000000000, 0.000000000000000000, 1.000000000000000000 ) ) ;
#248 = ORIENTED_EDGE ( 'NONE', *, *, #36, .T. ) ;
#249 = PERSON_AND_ORGANIZATION ( #40, #123 ) ;
#250 = EDGE_LOOP ( 'NONE', ( #210, #332, #102, #329 ) ) ;
#251 = CARTESIAN_POINT ( 'NONE',  ( -2.500000000000000444, 0.000000000000000000, 0.000000000000000000 ) ) ;
#252 = EDGE_LOOP ( 'NONE', ( #21, #159 ) ) ;
#253 = CIRCLE ( 'NONE', #237, 10.00000000000000000 ) ;
#254 = LOCAL_TIME ( 9, 26, 27.00000000000000000, #278 ) ;
#255 = CARTESIAN_POINT ( 'NONE',  ( 3.000000000000000000, 0.000000000000000000, 0.000000000000000000 ) ) ;
#256 = ORIENTED_EDGE ( 'NONE', *, *, #134, .F. ) ;
#257 = CALENDAR_DATE ( 2020, 23, 12 ) ;
#258 = ORIENTED_EDGE ( 'NONE', *, *, #125, .F. ) ;
#259 = AXIS2_PLACEMENT_3D ( 'NONE', #255, #301, #209 ) ;
#260 = APPROVAL_DATE_TIME ( #13, #106 ) ;
#261 = CARTESIAN_POINT ( 'NONE',  ( -2.500000000000000444, 10.00000000000000000, 0.000000000000000000 ) ) ;
#262 = PERSON_AND_ORGANIZATION ( #40, #123 ) ;
#263 = DIRECTION ( 'NONE',  ( 0.000000000000000000, 0.000000000000000000, 1.000000000000000000 ) ) ;
#264 = APPROVAL_PERSON_ORGANIZATION ( #314, #148, #50 ) ;
#265 = AXIS2_PLACEMENT_3D ( 'NONE', #91, #35, #313 ) ;
#266 = DIRECTION ( 'NONE',  ( 1.000000000000000000, 0.000000000000000000, 0.000000000000000000 ) ) ;
#267 = CC_DESIGN_DATE_AND_TIME_ASSIGNMENT ( #103, #282, ( #199 ) ) ;
#268 = DIRECTION ( 'NONE',  ( -1.000000000000000000, -0.000000000000000000, -0.000000000000000000 ) ) ;
#269 = EDGE_CURVE ( 'NONE', #162, #161, #155, .T. ) ;
#270 = FACE_BOUND ( 'NONE', #158, .T. ) ;
#271 = AXIS2_PLACEMENT_3D ( 'NONE', #189, #167, #290 ) ;
#272 = CIRCLE ( 'NONE', #265, 12.69999999999999929 ) ;
#273 = PRODUCT_DEFINITION_SHAPE ( 'NONE', 'NONE',  #173 ) ;
#274 = CYLINDRICAL_SURFACE ( 'NONE', #172, 12.69999999999999929 ) ;
#275 = DIRECTION ( 'NONE',  ( 0.000000000000000000, 0.000000000000000000, 1.000000000000000000 ) ) ;
#276 = VECTOR ( 'NONE', #99, 1000.000000000000000 ) ;
#277 = PRODUCT_RELATED_PRODUCT_CATEGORY ( 'detail', '', ( #320 ) ) ;
#278 = COORDINATED_UNIVERSAL_TIME_OFFSET ( 8, 0, .AHEAD. ) ;
#279 = ORIENTED_EDGE ( 'NONE', *, *, #4, .F. ) ;
#280 =( NAMED_UNIT ( * ) SI_UNIT ( $, .STERADIAN. ) SOLID_ANGLE_UNIT ( ) );
#281 = CIRCLE ( 'NONE', #146, 10.00000000000000000 ) ;
#282 = DATE_TIME_ROLE ( 'classification_date' ) ;
#283 = AXIS2_PLACEMENT_3D ( 'NONE', #309, #220, #28 ) ;
#284 = ORIENTED_EDGE ( 'NONE', *, *, #150, .T. ) ;
#285 = COORDINATED_UNIVERSAL_TIME_OFFSET ( 8, 0, .AHEAD. ) ;
#286 = EDGE_LOOP ( 'NONE', ( #183, #46 ) ) ;
#287 = PERSON_AND_ORGANIZATION_ROLE ( 'design_supplier' ) ;
#288 =( LENGTH_UNIT ( ) NAMED_UNIT ( * ) SI_UNIT ( .MILLI., .METRE. ) );
#289 = AXIS2_PLACEMENT_3D ( 'NONE', #90, #170, #241 ) ;
#290 = DIRECTION ( 'NONE',  ( 0.000000000000000000, 0.000000000000000000, -1.000000000000000000 ) ) ;
#291 = FACE_OUTER_BOUND ( 'NONE', #286, .T. ) ;
#292 = DATE_AND_TIME ( #218, #33 ) ;
#293 = DIRECTION ( 'NONE',  ( -1.000000000000000000, 0.000000000000000000, -0.000000000000000000 ) ) ;
#294 = DIRECTION ( 'NONE',  ( -1.000000000000000000, -0.000000000000000000, -0.000000000000000000 ) ) ;
#295 = LINE ( 'NONE', #68, #276 ) ;
#296 = PRODUCT_DEFINITION_FORMATION_WITH_SPECIFIED_SOURCE ( 'ANY', '', #320, .NOT_KNOWN. ) ;
#297 = EDGE_CURVE ( 'NONE', #162, #80, #334, .T. ) ;
#298 = CC_DESIGN_APPROVAL ( #106, ( #173 ) ) ;
#299 = DIRECTION ( 'NONE',  ( 0.000000000000000000, 0.000000000000000000, -1.000000000000000000 ) ) ;
#300 = ORIENTED_EDGE ( 'NONE', *, *, #34, .T. ) ;
#301 = DIRECTION ( 'NONE',  ( -1.000000000000000000, -0.000000000000000000, -0.000000000000000000 ) ) ;
#302 = PERSON_AND_ORGANIZATION_ROLE ( 'classification_officer' ) ;
#303 = MANIFOLD_SOLID_BREP ( 'Ðý×', #71 ) ;
#304 = VERTEX_POINT ( 'NONE', #194 ) ;
#305 = AXIS2_PLACEMENT_3D ( 'NONE', #317, #152, #242 ) ;
#306 = APPROVAL_DATE_TIME ( #56, #148 ) ;
#307 = VERTEX_POINT ( 'NONE', #236 ) ;
#308 = VERTEX_POINT ( 'NONE', #101 ) ;
#309 = CARTESIAN_POINT ( 'NONE',  ( -1.614212418857619014, 0.000000000000000000, 0.000000000000000000 ) ) ;
#310 = CIRCLE ( 'NONE', #176, 10.00000000000000000 ) ;
#311 = APPROVAL_ROLE ( '' ) ;
#312 = VECTOR ( 'NONE', #45, 1000.000000000000000 ) ;
#313 = DIRECTION ( 'NONE',  ( 0.000000000000000000, 0.000000000000000000, 1.000000000000000000 ) ) ;
#314 = PERSON_AND_ORGANIZATION ( #40, #123 ) ;
#315 = CARTESIAN_POINT ( 'NONE',  ( 2.999999999999999112, 0.000000000000000000, 0.000000000000000000 ) ) ;
#316 = CYLINDRICAL_SURFACE ( 'NONE', #283, 10.00000000000000000 ) ;
#317 = CARTESIAN_POINT ( 'NONE',  ( 2.999999999999999112, 0.000000000000000000, 0.000000000000000000 ) ) ;
#318 = FACE_OUTER_BOUND ( 'NONE', #335, .T. ) ;
#319 = ADVANCED_FACE ( 'NONE', ( #15 ), #139, .F. ) ;
#320 = PRODUCT ( 'Q-QZWP-R4-20-852-M', 'Q-QZWP-R4-20-852-M', '', ( #186 ) ) ;
#321 = CARTESIAN_POINT ( 'NONE',  ( -3.000000000000000000, 10.00000000000000000, 0.000000000000000000 ) ) ;
#322 = VECTOR ( 'NONE', #181, 1000.000000000000000 ) ;
#323 = DIRECTION ( 'NONE',  ( -1.000000000000000000, -0.000000000000000000, -0.000000000000000000 ) ) ;
#324 = EDGE_CURVE ( 'NONE', #304, #138, #191, .T. ) ;
#325 = DIRECTION ( 'NONE',  ( -1.000000000000000000, -0.000000000000000000, -0.000000000000000000 ) ) ;
#326 = ORIENTED_EDGE ( 'NONE', *, *, #333, .T. ) ;
#327 = CIRCLE ( 'NONE', #223, 10.00000000000000000 ) ;
#328 = DIRECTION ( 'NONE',  ( 0.000000000000000000, 0.000000000000000000, 1.000000000000000000 ) ) ;
#329 = ORIENTED_EDGE ( 'NONE', *, *, #269, .F. ) ;
#330 = DATE_AND_TIME ( #257, #62 ) ;
#331 = VERTEX_POINT ( 'NONE', #108 ) ;
#332 = ORIENTED_EDGE ( 'NONE', *, *, #125, .T. ) ;
#333 = EDGE_CURVE ( 'NONE', #307, #308, #227, .T. ) ;
#334 = CIRCLE ( 'NONE', #147, 10.00000000000000000 ) ;
#335 = EDGE_LOOP ( 'NONE', ( #55, #326, #131, #129 ) ) ;
ENDSEC;
END-ISO-10303-21;
